Syd Barrett & Pink Floyd
The Laughing Madcaps Facebook Group       http://www.SydBarrettPinkFloyd.com

Monday, June 29, 2009

Pink Floyd - Lucifer Sam: Video, Guitar, Bass





Lucifer Sam - Lyrics
(Barrett) 3:07

Lucifer Sam, Siam cat.
Always sitting by your side
Always by your side.
That cat's something I can't explain.

Ginger, ginger you're a witch.
You're the left side
He's the right side.
Oh, no!
That cat's something I can't explain.

Lucifer go to sea.
Be a hip cat
Be a ship's cat.
Somewhere, anywhere.
That cat's something I can't explain.

At night prowling sifting sand.
Hiding around on the ground.
He'll be found when you're around.
That cat's something I can't explain.

Lucifer Sam - Guitar

------------------------------------
------------------------------------
------------------------------------
------------------------------------ x4
----------4-4-----3-----2-2-----0---
-0----0-2------2-----2-------2------

-------------------------------------
-------------------------------------
-------------------------------------
-------2-2-----1-----0-0------------- x2
-0-1-2------2-----2-------2--4-------
-------------------------------------

-------------------------------------
-------------------------------------
-------------------------------------
------------------------------------- x2
-------4-4-----3-----2-2-----0-------
---0-2------2-----2-------2----------

F#m G
Lucifer Sam, siam cat.
B
Always sitting by your side
E
Always by your side.
C G D
That cat's something I can't explain.

-------------------------------------
-------------------------------------
-------------------------------------
------------------------------------- x4
------4-4-----3-----2-2-----0--------
--0-2------2-----2-------2-----------

-------------------------------------
-------------------------------------
-------------------------------------
-------2-2-----1-----0-0------------- x2
-0-1-2------2-----2-------2--4-------
-------------------------------------

-------------------------------------
-------------------------------------
-------------------------------------
-------------------------------------
---4-4-----3-----2-2-----0-----------
--------2-----2-------2--------------

-------------------------------------
-------------------------------------
-------------------------------------
-------------------------------------
--------4-4-----3-----2-2-----0------
---0-2-------2-----2-------2---------


F#m G
Jennifer Gentle you're a witch.
B
You're the left side

He's the right side.
E
Oh, no!
C G D
That cat's something I can't explain.

F#m B G D B F#m (listen to the song for the chord changes)

F#m G
Lucifer go to sea.
B
Be a hip cat, be a ship's cat.
E
Somewhere, anywhere.
C G D
That cat's something I can't explain.

-------------------------------------
-------------------------------------
-------------------------------------
------------------------------------- x4
-------4-4-----3-----2-2-----0-------
---0-2------2-----2-------2----------

-------------------------------------
-------------------------------------
-------------------------------------
-------2-2-----1-----0-0------------- x2
-0-1-2------2-----2-------2--4-------
-------------------------------------

-------------------------------------
-------------------------------------
-------------------------------------
------------------------------------- x2
-------4-4-----3-----2-2-----0-------
---0-2------2-----2-------2----------

F#m G
Night prowling sifting sand.
B
Padding around on the ground.
E
He'll be found when you're around.
C G D
That cat's something I can't explain.

Lucifer Sam - Bass

Intro/main:

G-------------------------------------------------------------
D-------------------------------------------------------------
A---------4-3-2-0-------4-3-2-0-------4-3-2-0-------4-3-2-0---
E--0-1-2-----------1/2-----------1-2-----------1/2------------

G---------------------------------------------------------------
D---------2-1-0---------2-1-0-----------------------------------
A--0-1-2--------4--1/2--------4---------4-3-2-0-------4-3-2-0---
E--------------------------------0-1-2-----------1/2------------

Pre chorus:

G-------------------------------------------------------------------
D--------------------------------9-9-7---7-9-9-7--9-9-7---7-9-9-7---
A--9-9-9-9-9-9-9-9--10-10-10-10--------9----------------9-----------
E-------------------------------------------------------------------

G---------------------/9-7---/9-7-------
D-----6-6-7-7-9-9----------9------9-----
A--7---------------7--------------------
E---------------------------------------

Chorus:

G------------------
D------------------
A--3-3-3-3--5------
E------------------

Then play main,pre chorus and chorus again then during solo:

G------------------------------------------------------------------------
D------------------------------------------------------------------------
A------------------------------------------------------------------------
E--2--2-2-2-2-2-2-2---5-5-5-5-5---2-2-2-2--0-0-0-0-0-0-0-0---2-2-2-2-2-2-




Labels:

0 Comments:

Post a Comment

Subscribe to Post Comments [Atom]

Links to this post:

Create a Link

<< Home